ISO-10303-21;
HEADER;
FILE_DESCRIPTION (( 'STEP AP214' ),
    '1' );
FILE_NAME ('10094216.STEP',
    '2022-04-20T12:15:27',
    ( 'Ifina' ),
    ( 'Ifina' ),
    'SwSTEP 2.0',
    'SolidWorks 2020',
    '' );
FILE_SCHEMA (( 'AUTOMOTIVE_DESIGN' ));
ENDSEC;

DATA;
#1 = CARTESIAN_POINT ( 'NONE',  ( 24.00000000000000355, 0.000000000000000000, 0.000000000000000000 ) ) ;
#2 = CIRCLE ( 'NONE', #65, 24.00000000000000355 ) ;
#3 = EDGE_LOOP ( 'NONE', ( #35 ) ) ;
#4 = ADVANCED_FACE ( 'NONE', ( #67, #100 ), #90, .T. ) ;
#5 = ORIENTED_EDGE ( 'NONE', *, *, #83, .F. ) ;
#6 = DIRECTION ( 'NONE',  ( 0.000000000000000000, 0.000000000000000000, 1.000000000000000000 ) ) ;
#7 = DIRECTION ( 'NONE',  ( 0.000000000000000000, 0.000000000000000000, 1.000000000000000000 ) ) ;
#8 = CARTESIAN_POINT ( 'NONE',  ( 0.000000000000000000, 0.000000000000000000, -500.0000000000000000 ) ) ;
#9 = CIRCLE ( 'NONE', #118, 20.00000000000000000 ) ;
#10 = APPLICATION_CONTEXT ( 'automotive_design' ) ;
#11 = SURFACE_STYLE_FILL_AREA ( #116 ) ;
#12 = EDGE_LOOP ( 'NONE', ( #124 ) ) ;
#13 = MECHANICAL_DESIGN_GEOMETRIC_PRESENTATION_REPRESENTATION (  '', ( #36 ), #45 ) ;
#14 = PLANE ( 'NONE',  #69 ) ;
#15 =( NAMED_UNIT ( * ) PLANE_ANGLE_UNIT ( ) SI_UNIT ( $, .RADIAN. ) );
#16 = CARTESIAN_POINT ( 'NONE',  ( 0.000000000000000000, 0.000000000000000000, -500.0000000000000000 ) ) ;
#17 = DIRECTION ( 'NONE',  ( 1.000000000000000000, 0.000000000000000000, 0.000000000000000000 ) ) ;
#18 = VERTEX_POINT ( 'NONE', #43 ) ;
#19 = FACE_OUTER_BOUND ( 'NONE', #56, .T. ) ;
#20 =( GEOMETRIC_REPRESENTATION_CONTEXT ( 3 ) GLOBAL_UNCERTAINTY_ASSIGNED_CONTEXT ( ( #125 ) ) GLOBAL_UNIT_ASSIGNED_CONTEXT ( ( #21, #120, #51 ) ) REPRESENTATION_CONTEXT ( 'NONE', 'WORKASPACE' ) );
#21 =( LENGTH_UNIT ( ) NAMED_UNIT ( * ) SI_UNIT ( .MILLI., .METRE. ) );
#22 = ORIENTED_EDGE ( 'NONE', *, *, #62, .F. ) ;
#23 = ADVANCED_FACE ( 'NONE', ( #49, #59 ), #92, .F. ) ;
#24 = PRODUCT_CONTEXT ( 'NONE', #110, 'mechanical' ) ;
#25 = ORIENTED_EDGE ( 'NONE', *, *, #107, .F. ) ;
#26 =( NAMED_UNIT ( * ) SI_UNIT ( $, .STERADIAN. ) SOLID_ANGLE_UNIT ( ) );
#27 = FILL_AREA_STYLE_COLOUR ( '', #109 ) ;
#28 = FACE_OUTER_BOUND ( 'NONE', #3, .T. ) ;
#29 = AXIS2_PLACEMENT_3D ( 'NONE', #131, #68, #40 ) ;
#30 = VERTEX_POINT ( 'NONE', #42 ) ;
#31 = DIRECTION ( 'NONE',  ( 1.000000000000000000, 0.000000000000000000, 0.000000000000000000 ) ) ;
#32 = CARTESIAN_POINT ( 'NONE',  ( 0.000000000000000000, 0.000000000000000000, -500.0000000000000000 ) ) ;
#33 = APPLICATION_PROTOCOL_DEFINITION ( 'draft international standard', 'automotive_design', 1998, #110 ) ;
#34 = PRESENTATION_STYLE_ASSIGNMENT (( #122 ) ) ;
#35 = ORIENTED_EDGE ( 'NONE', *, *, #81, .T. ) ;
#36 = STYLED_ITEM ( 'NONE', ( #84 ), #38 ) ;
#37 = EDGE_LOOP ( 'NONE', ( #80 ) ) ;
#38 = MANIFOLD_SOLID_BREP ( 'Linear austragen1', #39 ) ;
#39 = CLOSED_SHELL ( 'NONE', ( #4, #23, #60, #97 ) ) ;
#40 = DIRECTION ( 'NONE',  ( 1.000000000000000000, 0.000000000000000000, -0.000000000000000000 ) ) ;
#41 = SURFACE_STYLE_FILL_AREA ( #127 ) ;
#42 = CARTESIAN_POINT ( 'NONE',  ( 24.00000000000000355, 0.000000000000000000, -500.0000000000000000 ) ) ;
#43 = CARTESIAN_POINT ( 'NONE',  ( 20.00000000000000000, 0.000000000000000000, -500.0000000000000000 ) ) ;
#44 = AXIS2_PLACEMENT_3D ( 'NONE', #8, #63, #31 ) ;
#45 =( GEOMETRIC_REPRESENTATION_CONTEXT ( 3 ) GLOBAL_UNCERTAINTY_ASSIGNED_CONTEXT ( ( #79 ) ) GLOBAL_UNIT_ASSIGNED_CONTEXT ( ( #70, #15, #26 ) ) REPRESENTATION_CONTEXT ( 'NONE', 'WORKASPACE' ) );
#46 = CARTESIAN_POINT ( 'NONE',  ( 0.000000000000000000, 0.000000000000000000, 0.000000000000000000 ) ) ;
#47 = AXIS2_PLACEMENT_3D ( 'NONE', #104, #6, #78 ) ;
#48 = CARTESIAN_POINT ( 'NONE',  ( 0.000000000000000000, 0.000000000000000000, 0.000000000000000000 ) ) ;
#49 = FACE_BOUND ( 'NONE', #89, .T. ) ;
#50 = FACE_OUTER_BOUND ( 'NONE', #12, .T. ) ;
#51 =( NAMED_UNIT ( * ) SI_UNIT ( $, .STERADIAN. ) SOLID_ANGLE_UNIT ( ) );
#52 =( LENGTH_UNIT ( ) NAMED_UNIT ( * ) SI_UNIT ( .MILLI., .METRE. ) );
#53 = COLOUR_RGB ( '',0.7529411764705882248, 0.7529411764705882248, 0.7529411764705882248 ) ;
#54 = PRODUCT_DEFINITION_SHAPE ( 'NONE', 'NONE',  #99 ) ;
#55 =( NAMED_UNIT ( * ) SI_UNIT ( $, .STERADIAN. ) SOLID_ANGLE_UNIT ( ) );
#56 = EDGE_LOOP ( 'NONE', ( #25 ) ) ;
#57 = SHAPE_DEFINITION_REPRESENTATION ( #54, #71 ) ;
#58 = EDGE_LOOP ( 'NONE', ( #22 ) ) ;
#59 = FACE_OUTER_BOUND ( 'NONE', #126, .T. ) ;
#60 = ADVANCED_FACE ( 'NONE', ( #111, #28 ), #14, .T. ) ;
#61 = DIRECTION ( 'NONE',  ( 0.000000000000000000, 0.000000000000000000, 1.000000000000000000 ) ) ;
#62 = EDGE_CURVE ( 'NONE', #72, #72, #9, .T. ) ;
#63 = DIRECTION ( 'NONE',  ( 0.000000000000000000, 0.000000000000000000, 1.000000000000000000 ) ) ;
#64 = CARTESIAN_POINT ( 'NONE',  ( 20.00000000000000000, 0.000000000000000000, 0.000000000000000000 ) ) ;
#65 = AXIS2_PLACEMENT_3D ( 'NONE', #101, #103, #75 ) ;
#66 = ORIENTED_EDGE ( 'NONE', *, *, #81, .F. ) ;
#67 = FACE_OUTER_BOUND ( 'NONE', #37, .T. ) ;
#68 = DIRECTION ( 'NONE',  ( 0.000000000000000000, 0.000000000000000000, 1.000000000000000000 ) ) ;
#69 = AXIS2_PLACEMENT_3D ( 'NONE', #46, #61, #128 ) ;
#70 =( LENGTH_UNIT ( ) NAMED_UNIT ( * ) SI_UNIT ( .MILLI., .METRE. ) );
#71 = ADVANCED_BREP_SHAPE_REPRESENTATION ( '10094216', ( #38, #47 ), #20 ) ;
#72 = VERTEX_POINT ( 'NONE', #64 ) ;
#73 = PRESENTATION_LAYER_ASSIGNMENT (  '', '', ( #129 ) ) ;
#74 = VERTEX_POINT ( 'NONE', #1 ) ;
#75 = DIRECTION ( 'NONE',  ( 1.000000000000000000, 0.000000000000000000, 0.000000000000000000 ) ) ;
#76 = AXIS2_PLACEMENT_3D ( 'NONE', #133, #121, #134 ) ;
#77 = MECHANICAL_DESIGN_GEOMETRIC_PRESENTATION_REPRESENTATION (  '', ( #129 ), #94 ) ;
#78 = DIRECTION ( 'NONE',  ( 1.000000000000000000, 0.000000000000000000, 0.000000000000000000 ) ) ;
#79 = UNCERTAINTY_MEASURE_WITH_UNIT (LENGTH_MEASURE( 1.000000000000000082E-05 ), #70, 'distance_accuracy_value', 'NONE');
#80 = ORIENTED_EDGE ( 'NONE', *, *, #83, .T. ) ;
#81 = EDGE_CURVE ( 'NONE', #74, #74, #2, .T. ) ;
#82 =( NAMED_UNIT ( * ) PLANE_ANGLE_UNIT ( ) SI_UNIT ( $, .RADIAN. ) );
#83 = EDGE_CURVE ( 'NONE', #30, #30, #98, .T. ) ;
#84 = PRESENTATION_STYLE_ASSIGNMENT (( #130 ) ) ;
#85 = DIRECTION ( 'NONE',  ( 0.000000000000000000, 0.000000000000000000, 1.000000000000000000 ) ) ;
#86 = APPLICATION_PROTOCOL_DEFINITION ( 'draft international standard', 'automotive_design', 1998, #10 ) ;
#87 = CIRCLE ( 'NONE', #44, 20.00000000000000000 ) ;
#88 = PRODUCT_DEFINITION_CONTEXT ( 'detailed design', #10, 'design' ) ;
#89 = EDGE_LOOP ( 'NONE', ( #117 ) ) ;
#90 = CYLINDRICAL_SURFACE ( 'NONE', #115, 24.00000000000000355 ) ;
#91 = PRODUCT_RELATED_PRODUCT_CATEGORY ( 'part', '', ( #95 ) ) ;
#92 = PLANE ( 'NONE',  #29 ) ;
#93 = DIRECTION ( 'NONE',  ( 1.000000000000000000, 0.000000000000000000, 0.000000000000000000 ) ) ;
#94 =( GEOMETRIC_REPRESENTATION_CONTEXT ( 3 ) GLOBAL_UNCERTAINTY_ASSIGNED_CONTEXT ( ( #106 ) ) GLOBAL_UNIT_ASSIGNED_CONTEXT ( ( #52, #82, #55 ) ) REPRESENTATION_CONTEXT ( 'NONE', 'WORKASPACE' ) );
#95 = PRODUCT ( '10094216', '10094216', '', ( #24 ) ) ;
#96 = EDGE_LOOP ( 'NONE', ( #66 ) ) ;
#97 = ADVANCED_FACE ( 'NONE', ( #19, #50 ), #114, .F. ) ;
#98 = CIRCLE ( 'NONE', #76, 24.00000000000000355 ) ;
#99 = PRODUCT_DEFINITION ( 'UNKNOWN', '', #132, #88 ) ;
#100 = FACE_OUTER_BOUND ( 'NONE', #96, .T. ) ;
#101 = CARTESIAN_POINT ( 'NONE',  ( 0.000000000000000000, 0.000000000000000000, 0.000000000000000000 ) ) ;
#102 = AXIS2_PLACEMENT_3D ( 'NONE', #32, #119, #93 ) ;
#103 = DIRECTION ( 'NONE',  ( 0.000000000000000000, 0.000000000000000000, 1.000000000000000000 ) ) ;
#104 = CARTESIAN_POINT ( 'NONE',  ( 0.000000000000000000, 0.000000000000000000, 0.000000000000000000 ) ) ;
#105 = FILL_AREA_STYLE_COLOUR ( '', #53 ) ;
#106 = UNCERTAINTY_MEASURE_WITH_UNIT (LENGTH_MEASURE( 1.000000000000000082E-05 ), #52, 'distance_accuracy_value', 'NONE');
#107 = EDGE_CURVE ( 'NONE', #18, #18, #87, .T. ) ;
#108 = SURFACE_SIDE_STYLE ('',( #41 ) ) ;
#109 = COLOUR_RGB ( '',0.7529411764705882248, 0.7529411764705882248, 0.7529411764705882248 ) ;
#110 = APPLICATION_CONTEXT ( 'automotive_design' ) ;
#111 = FACE_BOUND ( 'NONE', #58, .T. ) ;
#112 = DIRECTION ( 'NONE',  ( 1.000000000000000000, 0.000000000000000000, 0.000000000000000000 ) ) ;
#113 = PRESENTATION_LAYER_ASSIGNMENT (  '', '', ( #36 ) ) ;
#114 = CYLINDRICAL_SURFACE ( 'NONE', #102, 20.00000000000000000 ) ;
#115 = AXIS2_PLACEMENT_3D ( 'NONE', #16, #7, #17 ) ;
#116 = FILL_AREA_STYLE ('',( #105 ) ) ;
#117 = ORIENTED_EDGE ( 'NONE', *, *, #107, .T. ) ;
#118 = AXIS2_PLACEMENT_3D ( 'NONE', #48, #85, #112 ) ;
#119 = DIRECTION ( 'NONE',  ( 0.000000000000000000, 0.000000000000000000, 1.000000000000000000 ) ) ;
#120 =( NAMED_UNIT ( * ) PLANE_ANGLE_UNIT ( ) SI_UNIT ( $, .RADIAN. ) );
#121 = DIRECTION ( 'NONE',  ( 0.000000000000000000, 0.000000000000000000, 1.000000000000000000 ) ) ;
#122 = SURFACE_STYLE_USAGE ( .BOTH. , #123 ) ;
#123 = SURFACE_SIDE_STYLE ('',( #11 ) ) ;
#124 = ORIENTED_EDGE ( 'NONE', *, *, #62, .T. ) ;
#125 = UNCERTAINTY_MEASURE_WITH_UNIT (LENGTH_MEASURE( 1.000000000000000082E-05 ), #21, 'distance_accuracy_value', 'NONE');
#126 = EDGE_LOOP ( 'NONE', ( #5 ) ) ;
#127 = FILL_AREA_STYLE ('',( #27 ) ) ;
#128 = DIRECTION ( 'NONE',  ( 1.000000000000000000, 0.000000000000000000, -0.000000000000000000 ) ) ;
#129 = STYLED_ITEM ( 'NONE', ( #34 ), #71 ) ;
#130 = SURFACE_STYLE_USAGE ( .BOTH. , #108 ) ;
#131 = CARTESIAN_POINT ( 'NONE',  ( 0.000000000000000000, 0.000000000000000000, -500.0000000000000000 ) ) ;
#132 = PRODUCT_DEFINITION_FORMATION_WITH_SPECIFIED_SOURCE ( 'ANY', '', #95, .NOT_KNOWN. ) ;
#133 = CARTESIAN_POINT ( 'NONE',  ( 0.000000000000000000, 0.000000000000000000, -500.0000000000000000 ) ) ;
#134 = DIRECTION ( 'NONE',  ( 1.000000000000000000, 0.000000000000000000, 0.000000000000000000 ) ) ;
ENDSEC;
END-ISO-10303-21;
